Ξεκλείδωμα ταστιέρας
Τραγούδι:Τα ματόκλαδα σου λάμπουν
Ερμηνευτής:
Δημιουργός:Βαμβακάρης Μάρκος

Χρήστης:

spyros55(6 φορές προστέθηκε στα αγαπημένα)
Άλλες εκδόσεις:melinaki(98), eviawind(59), ΚΩΣΤΑΣR1(33), jdaoutid(29), George2000(18), Χρήστος Σταμούλος(16), theios(4), A.Rafael2017(1)
Ταμπλατούρα:
 τα ματοκλαδα σου λαμπουν                             



Όργανο 1
|-3-|
W S T T T E E S. T T T T T E. T T S T T S T T S T T
D||---------------------4-4-4-|--5--17-----------0-3-4---4-4-4-4-4-4-4-4-4-4-4-|
A||---------------------------|-----17-------2-4-------------------------------|
F||---------------------------|-----14-----1-----------------------------------|
C||---------------------------|------------------------------------------------|


S T T T T T. X T T S S T T T T S T T T T Q T T T T
--4-4-4-4-5-4--3-4-3-0-3-0---0--------------------------|
---------------------------4---4-2-4-2-2-1-2----L-0-2-4-|
--------------------------------------------------------|
--------------------------------------------------------|


E. T T S T T S T T S T T S T T S T T Q
--0---0---0-0---0-0---0-0---0-0---0-0---0----|
---------------------------------------------|
---------------------------------------------|
--------2-----2-----2-----2-----2-----2------|


|-3-|
T T T T T. X T T T. X T T T. X T T T. X T T S S T T T T T Q
--L-----4-3----0-3-0------0--------------------------------------|
------0-----------------4---4----2-4-2--1-2-1---1----------------|
----------------------------------------------2---2-1-2-1-0-1----|
----2--------2--------2--------2---------------------------------|


|-3-|
T T T T T T T T T T T T T T T T T T T T T T T T T S.T T T S.T S
----4---9---7---11---9-0-12---11-2-14-0-12---11---9---7-7-11---7---5g9---9-|
------2---0---4----2--------4--------------4----2---0--------0---------2---|
--1--------------------------------------------------------------2---------|
---------------------------------------------------------------------------|


|-3-|
T T T E T T T S T T S S T T T T S T T T T S T T T T T S
----5---4--L-5-4-3-4-3-0-3-0---0---------------------------|
-----------------------------4---4-2-1-2-4-2-1-------------|
--2---1----------------------------------------2-1-2-1-0-1-|
-----------------------------------------------------------|


S T T T T S T T T T S. T S S S S Q.
----0---0--------------------0-4-9-L------|
------4---4-2-4-2-2-1-2----2--------------|
--L----------------------1----------------|
------------------------------------------|


ταχυτητα 70
E S S E S S S S S S E S S E
|---9-------------0-2--4-2-0-2---0----4-4-4--|
|*--------------4--------------4---2---------|
|*-------------------------------------------|
|--------------------------------------------|


E S S E S S S S S S S S S S E S S S S S S S S S S S S E S S E
--9----0-2--4-2-0-2---0------------|--4-2-0-2-4-2-0-2-4-2-0------4-4-4--|
-----4--------------4---2-2-2-2-2--|------------------------4-2---------|
-----------------------------------|------------------------------------|
-----------------------------------|------------------------------------|


S S S S S S S S S S S S S S S S S S
--4-2-0-2-4-2-0-2-4-2-0---------------|
------------------------4-2-2-2-2-2-4-|
--------------------------------------|
--------------------------------------|


τα ματοκλαδα σου λαμπουν βρε
E S S E S S E S S E E E
--0g0-------------------------------0-2--4-2-0--0------4--4--|
-------4------------------------------------------4-2--------|
-------------------------------------------------------------|
--2g2--------------------------------------------------------|


E S S E S S E E E E. S E S S E S S E S S E E E
--L----0-2--4-2-0--------------|--0g0----0-2--4-2-0--0------4--4--|
-----4-------------4--2--2---4-|-------4---------------4-2--------|
-------------------------------|----------------------------------|
-------------------------------|--2g2-----------------------------|


E S S S S S S E S S E Q S S S S S S S S S S S S E S S E
--9--4-2-0-2-4-0-2--0------------||--4-2-0-2-4-2-0-2-4-2-0------4-4-4--|
----------------------4-2--2----*||------------------------4-2---------|
--------------------------------*||------------------------------------|
---------------------------------||------------------------------------|


S S S S S S S S S S S S E E E
--4-2-0-2-4-2-0-2-4-2-0------8--9--|-----||
------------------------4-2--9--9--|-----||
-----------------------------8--9--|-----||
-----------------------------------|-----||




Duration Legend
---------------
W - whole
H - half
Q - quarter
E - 8th
S - 16th
T - 32nd
X - 64th
. - note dotted
|-n-| - n-tuplets


Tablature Legend
----------------
L - tied note
x - dead note
g - grace note
(n) - ghost note
> - accentuded note
NH - natural harmonic
AH - artificial harmonic
TH - tapped harmonic
SH - semi harmonic
PH - pitch harmonic
h - hammer on
p - pull off
b - bend
br - bendRelease
pb - preBend
pbr - preBendRelease
brb - bendReleaseBend
\n/ - tremolo bar dip
\n - tremolo bar dive
-/n - tremolo bar Release up
/n\ - tremolo bar inverted dip
/n - tremolo bar return
-\n - tremolo bar Release down
S - shift slide
s - legato slide
/ - slide into from below or out of upwards
\ - slide into from above or out of downwards
~ - vibrato
W - wide vibrato
tr - trill
TP - tremolo picking
T - tapping
S - slap
P - pop
< - fade in
^ - brush up
v - brush down



Add comment: