Βαθμολογήθηκε 1.0 από 1 χρήστη


Ξεκλείδωμα ταστιέρας
Τραγούδι:πεντε ελληνες στον αδη σε ρε-λα-ρε-σολ
Ερμηνευτής:
Δημιουργός:Παπαϊωάννου Γιάννης
Χρήστης:lazaros
Άλλες εκδόσεις:
Ταμπλατούρα:
πεντε ελληνες στον αδη

παπαϊωαννου


κουρδισμα : D A D G (ΡΕ-ΛΑ-ΡΕ-ΣΟΛ)

D |-----------------------------------------------------------------------------------------|
A |---------0----0-----0--------------0------------------0--1----0--------------------------|
D |----2-------------------------1--2---------------1-2-------2-----0-------0---------------|
G |-------------------------2-4---------------2--4--------------------4--2-----4------------|


|-------0---------2---------0------------------------------------2--3-2--0--0-----0-------|
|--3-------------------3------------1--3--1--0--0----0-----0-------------------3----------|
|-----------------------------------------------------------------------------------------|
|-----------------------------------------------------------------------------------------|

|-----------------------------------------------------------------------------------------|
|-------0---------0----------------0--------------------0--1-----0------------------------|
|--2-------------------------1--2-----------------1--2--------2-----0-------0-------------|
|----------------------2--4-----------------2--4-----------------------4-2-----4----------|

|--------------------------------------------0--------------------------------------------|
|-------3----2----1-------0----------3-2--3--------0----2----0------------------0---------|
|--2----------------------------2----------------------------------2----1----1--2---------|
|--------------------------------------------------------------------------4--------------|

|-----------------------------------------------------------------------------------------|
|----------------0-----0-------0----------0------0--2---0----------0----------------------|
|----------2------------------------2--------2---------------2---------2--0---------------|
|----------------------------------------------------------------------------4---4--------|

|-----------------------------------------0------0--2---0----------0----------------------|
|----------------0-----0-------0-------------3---------------3---------3--1--0---0--------|
|----------2------------------------2-----------------------------------------------------|
|-----------------------------------------------------------------------------------------|

|-------------------------------------------0-----0--2--2---------------------------------|
|---------------0-------0---------0------------3-----------3----1--3--1--0--0--2--1-------|
|----------2---------------------------2--------------------------------------------------|
|-----------------------------------------------------------------------------------------|

|-----------------------------------------------------------------------------------------|
|--0-------------0-----0-------0--------------------0-------------------------------------|
|----------2------------------------2-----2--1---2------0----------0---2--0---------------|
|------------------------------------------------------------4---------------4---2--------|

|--------------------------------0------------0---------------------|--------------|
|-----------------------------------------3------3-1-0--0-0---------|--------------|
|-----------------------2-0-----------------------------------------|--------------|
|---------2----4---2---------4-2------------------------------------|--------------|






Πρόσθεσε σχόλιο:
2014-03-09 16:04:52
lazaros: οι βαρβαρο-σαξονο-κελτες , αυτες οι αδερφαρες του βορα (η ομοφυλοφιλια ηταν επιβεβλημενη σε αυτους για να περιοριζουν τις γεννησεις διοτι δεν μπορουσαν να θρεψουν ολο τον κοσμο τους και πηδουσαν τις γυναικες τους μονο για αναπαραγωγη..δεν το βγαζω απο το μυαλο μου το εχει γραψει ενας αρχαιος ιστορικος) ειχαν ενα οργανο που εμοιαζε με το Bajo Sexto (Λατινοαμερικάνικο δωδεκάχορδο όργανο. Μοιάζει πολύ με κιθάρα. Οι χορδές είναι σε ζεύγη.)και κουρδιζεται -Μι, Λα, Ρε, Σολ, Ντο, Φα, αυτοι λοιπον αρχηκα δεν εφτιαξαν μπουζουκι αλλα κατι σαν ουτι η λαουτο που εχει μεγαλυτερη ακουστικοτητα λογο του μεγαλυτερου χωρου που δημιουργει η καμπυλοτητα του σκαφους και με την παροδο του χρονου ελαχε να μοιασει με μπουζουκι ..για μενα κακως το λενε μπουζουκι γιατι δεν ειναι..μοιαζει αλλα δεν ειναι...οπως το τυρι φετα απο τον καναδα , μοιαζει με φετα αλλα δεν ειναι
2014-03-09 15:40:59
elotag: Γεια σου Λαζαρε,συνεχισε να μας διδασκεις,ολοι σε ακουμε και μην ξεχνας οτι η κριση μας ειναι υποκειμενικη,γιατι η εμπειρια που κουβαλαει ο καθενας μας,γινεται εμποδιο να κρινουμε σωστα,μιας και αυτα τα οποια για μας ειναι ευκολα και κατανοητα,για αλλους ειναι κινεζικα.Συνεχισε τη φιλοτιμη προσπαθεια σου και με την πρωτη συναυλια σου καλεσε μας να σε απολαυσουμε απο κοντα. Ελληνικό κούρδισμα τρίχορδου μπουζουκιού: Ρε, Λα, Ρε -Ελληνικό κούρδισμα τετράχορδου μπουζουκιού: Ρε, Λα, Φα, Ντο -Ιρλανδικό κούρδισμα: Ρε, Λα, Ρε, Σολ -Ιρλανδικά εναλλακτικά κουρδίσματα: Μι, Λα, Ρε, Σολ ή Μι, Λα, Ρε, Λα.Περιμενω απαντηση πως και γιατι αλλα και απο που οι Ιρλανδοι χορδιζουν το μπουζουκι ετσι.Καλες πενιες
2014-03-09 15:10:41
Rempeths: Ξέρω τι είναι ντουζένι φίλε μου απλός ήξερα και απο ότι μου είχαν πεί οτι σε 4χορδα δεν παίζοντε τα ντουζένια των τριχόρδων είναι πολλά και κυρίως έπαιζε εκεί και ο Μάρκος και γεικά πολλοί παλλοί που δεν μπορούσαν να παίξουν κάποιες κλίμακες σε ρε-λα-ρε και με την αλλαγή του κουρδίσματος του ήταν πιο εύκολο το παίξιμο... Καλό απόγευμα φίλε κια καλές πενιές!!!
2014-03-09 15:03:56
lazaros: γεια σου φιλε μου ΡΕΜΠΕΤΗ..κατ`αρχην ντουζενι σημαινει κουρδισμα(η πιο σωστα χορδισμα) (προερχεται απο λατινικη λεξη αλλα αυτο ειναι αλλη ιστορια), οταν λες ντουζενι πρεπει να προσδιορισεις σε τι νοτα η κλιμακα θα ειναι αυτο το ντουζενι.συνηθως κουρδιζουμε την κιθαρα η οποιο αλλο ενχορδο με το κλασικο τροπο για να εχουμε συγκεντρομενες τις νοτες σε λιγα ταστα για μεγαλυτερη ταχυτητα ...E-B-G-D-A-E ...υπαρχουν και αλλα κουρδισματα αναλογα με την κλιμακα του τραγουδιου οπως ρε+ D-A-F#-D-A-D,μι+ E-B-G#-E-B-E,σολ+ D-B-G-D-G-D, λα+ E-C#-A-E-A-E... μπορεις να κουρδισεις το οργανο σου σε οποιο τονο θελεις πχ...λα μινορε E-A-E-C,ΡΕ- D-A-F-D..για μπουζουκι τωρα και για παραδοσιακο παιξιμο...1)το παλαιοτερο κουρδισμα ολων ..D-D-D(πχ τουτοι μπατσοι πουρθαν τωρα)2)ανοιχτο ιταλικο..D-A-D 3)D-G-G (για ραστ και ουσακ)4)αραμπiεν D-G-B για χουζαμ ..5)καραντουζενι(μαυρο κουρδισμα)D-G-A για ουσακ.6)συριανο D-G-A# για ζιτζαζ,χιτζασκιαρ.7(δυτικο ντουζενι D-G-Cγια χιτζαζ και ραστ 8)ισιο(ισωκρατης) D-G-D
2014-03-09 13:56:59
Rempeths: Tι κούρδισμα είναι αυτό; μόνο στα τρίχορδα ξέρω τα ντουζένια !!!
2014-03-05 14:03:47
lazaros: ακομα μια εκδοση με κουρδισμα ρε-λα-ρε-σολ .......για τους "υψιλης" διανοησης ρεμπετολογους...ισως ετσι να ειναι πιο ευκολο