Βαθμολογήθηκε 0 από 0 χρήστες


Ξεκλείδωμα ταστιέρας
Τραγούδι:Καπετάν Ανδρέα Ζέππο
Ερμηνευτής:
Δημιουργός:Παπαϊωάννου Γιάννης
Χρήστης:lazaros
Άλλες εκδόσεις:
Ταμπλατούρα:
καπεταν ανδρεα ζεππο

παπαίωαννου


Tuning : D A F C

D |----7-----7---9--5-----5--7---|--4-----4---5--2-----2---4--|---0--2--4--5--7--4---5--2--|
A |------------------------------|----------------------------|----------------------------|
F |------------------------------|----------------------------|----------------------------|
C |------------------------------|----------------------------|----------------------------|


|--0-2--4-5-7--6-7-----|-7--6-7-9--5-4-5--7---|-4-2--4-5-2--0-2-4----|0--2-4-5--7-4-5--2----|
|----------------------|----------------------|----------------------|----------------------|
|----------------------|----------------------|----------------------|----------------------|
|----------------------|----------------------|----------------------|----------------------|

|--0----0--2-0-----0-----|----11-11-11--|-11-1011-12--911--7-9---|--5----5--7--9----9-7---|
|---------------4--------|--------------|------------------------|------------------------|
|------------------------|--------------|------------------------|------------------------|
|------------------------|--------------|------------------------|------------------------|
μια ψαροπουλα


|11-1211--9--7-5--4-----|----11-11-11--|-11-1011-12--911--7-9---|--5----5--7--9----9-7---|
|------------------------|--------------|------------------------|------------------------|
|------------------------|--------------|------------------------|------------------------|
|------------------------|--------------|------------------------|------------------------|

|-11-1211--9--7-5--4-----|-----5--5--5---|--5--7-5--4--5-----4---|--5----7----9-----9-7---|
|------------------------|---------------|-----------------------|------------------------|
|------------------------|---------------|-----------------------|------------------------|
|------------------------|---------------|-----------------------|------------------------|

|-11---11--9--7--5-4-----|-----5--5--5---|--5--7-5--4--5-----4---|--5----7----9-----9-7---|
|------------------------|---------------|-----------------------|------------------------|
|------------------------|---------------|-----------------------|------------------------|
|------------------------|---------------|-----------------------|------------------------|

|-1112-11-9-7--5-4-----|------7-9--9---9------|-9----9-711---11------|-----7-9--9---9--7----|
|----------------------|----------------------|----------------------|----------------------|
|----------------------|----------------------|----------------------|----------------------|
|----------------------|----------------------|----------------------|----------------------|

|-11---11-9-7--5-4-----|------4-5--5---5------|-5----5-4-7----7------|-----4-5--5---5--4----|
|----------------------|----------------------|----------------------|----------------------|
|----------------------|----------------------|----------------------|----------------------|
|----------------------|----------------------|----------------------|----------------------|

|--7----7-5--4-2--0----|
|----------------------|
|----------------------|
|----------------------|


Πρόσθεσε σχόλιο:
2014-03-10 13:50:40
lazaros: ο θρυλικος ζεππος ο καϊκτζης που πεθανε στην ψαθα......εδω η παρτιτουρα και ταμπλατουρα σε βελτιομενη εκδοση...http://mpouzoukizo.blogspot.gr/