Βαθμολογήθηκε 5.0 από 1 χρήστη


Ξεκλείδωμα ταστιέρας
Τραγούδι:Καραβοτσακίσματα
Ερμηνευτής:Μάρκος Βαμβακάρης,Φράγκος
Δημιουργός:Βαμβακάρης Μάρκος
Youtube:http://www.youtube.com/watch?v=MweCHf5_zFs
Χρήστης:spyros55
Άλλες εκδόσεις:
Rempeths
(1)
spikos
(3)
Ταμπλατούρα:
 καραβοτσακισματα                                 



Όργανο 1
E
TP TP TP TP TP
Q E. T T E E E E S S S S E E S S S S E E
D||-------------13-||---14--14--9--9--|--8-9-11-9-7--6--|--8-9-11-9-7--6--|
A||----------------||*----------------|-----------------|-----------------|
F||----------------||*----------------|-----------------|-----------------|
C||----------------||-----------------|-----------------|-----------------|


Edim E E
TP TP
E S T T Q S S S S S S S S S S S S E E S S S S S S S S
--8----L-8-8-9----|--9-14-14-14-14-9-9-9-|--8-9-11-9-7--6--|--8-9-11-9-7-6-4-6-|
------------------|----------------------|-----------------|-------------------|
------------------|----------------------|-----------------|-------------------|
------------------|----------------------|-----------------|-------------------|


tr tr
E E E. T T E S.T E E S S S S E E S S S S E E
--2-----2---L-13-|--14--14-8-9--9--|--8-9-11-9-7(7)--6--|--8-9-11-9-7(7)--6--|
-----2-----------|-----------------|--------------------|--------------------|
-----------------|-----------------|--------------------|--------------------|
-----------------|-----------------|--------------------|--------------------|


|--3--|
E. T T E. T T T E S. T E E S S S E E S
--8---L-11-9---9-11-13-|--14--14-14-9--9--|--8-9-11-9--7--6-|
-----------------------|------------------|-----------------|
-----------------------|------------------|-----------------|
-----------------------|------------------|-----------------|


βασανα πικρες φαρμακια......
B E
S S S S S S S S E E Q E S S E E
--8-9-11-9-7-6-4-6-|--2-----2----|---9-------------------------------2-6--9--|
-------------------|-----2-------|--11--2------------------------------------|
-------------------|-------------|--11---------------------------------------|
-------------------|-------------|-------------------------------------------|


Edim E
S S S S E E S S S S E E Q Q E S S E E
--8-9-11-9-7--6--|--8-9-11-9-7--6--|--8----9----|---9----2-6--9--|
-----------------|-----------------|------------|--11--2---------|
-----------------|-----------------|------------|--11------------|
-----------------|-----------------|------------|----------------|


S S S S E S. T S S S S S S S S E E E E E S S E E
--8-9-11-9-7--6--9-|--8-9-11-9-7-6-4-6-|--2------9-----|---9----2-6--9--|
-------------------|-------------------|-----2--11--2--|--11--2---------|
-------------------|-------------------|--------11-----|--11------------|
-------------------|-------------------|---------------|----------------|


Edim E
S S S S E S. T S S S S E E Q Q E S S E E
--8-9-11-9-7--6--9-|--8-9-11-9-7--6--|--8----9----|---9----2-6--9--|
-------------------|-----------------|------------|--11--2---------|
-------------------|-----------------|------------|--11------------|
-------------------|-----------------|------------|----------------|


B E
S S S S E E S S S S S S S S E. S E E E S S E E
--8-9-11-9-7--6--|--8-9-11-9-7-6-4-6-|--2------9--2--|---9--9-14-18--21--|
-----------------|-------------------|------2-11-----|--11---------------|
-----------------|-------------------|--------11-----|--11---------------|
-----------------|-------------------|---------------|-------------------|


Edim E
TP TP
S S S S E E S S S S E E E. T T Q
--20-21-23-21-19--18--|--20-21-23-21-19--18--|--20---L-23-21----|
----------------------|----------------------|------------------|
----------------------|----------------------|------------------|
----------------------|----------------------|------------------|


B
E S S E E S S S S E E S S S S S S S S
--21--9-14-18--21--|--20-21-23-21-19--18--|--20-21-23-21-19-18-16-18-|
--23---------------|----------------------|--------------------------|
--23---------------|----------------------|--------------------------|
-------------------|----------------------|--------------------------|


E E7 Am
E E E. S E E. S S S E E. S S S E E. S S S
--14--9--14---11-|--12--12---8-9-11-|--12--12---14-12-14-|--10--10---6-7-9-|
-----------------|------------------|--------------------|-----------------|
-----------------|------------------|--------------------|-----------------|
-----------------|------------------|--------------------|-----------------|


B
E E. S S S S S S S S S S S S S S S E. S
--10--10---14-12-14-|--10-12-9-10-8-9-10-9-|--11-10-9-8-9---11-|
--------------------|----------------------|-------------------|
--------------------|----------------------|-------------------|
--------------------|----------------------|-------------------|


E E. S S S E E. S S S E E. S S S E E. S S S
--12--12---8-9-10-|--12--12---14-12-14-|--10--10---6-7-9-|--10--10---14-13-14-|
------------------|--------------------|-----------------|--------------------|
------------------|--------------------|-----------------|--------------------|
------------------|--------------------|-----------------|--------------------|


TP TP TP TP
S S S S S S S S Q E S. T E E E E S S S S E E
--16-13-14-10-13-9-10-7-|--6--------9-11--||--14--14--9--9--|--8-9-11-9-7--6--|
------------------------|-------2--11----*||----------------|-----------------|
------------------------|----------11----*||----------------|-----------------|
------------------------|-----------------||----------------|-----------------|


S S S S E E E. T T E. T T S S S S S S S S S S S S E E
--8-9-11-9-7--6--|--8---L-8-9---L-11-|--14-14-14-14-14-9-9-9-|--8-9-11-9-7--6--|
-----------------|-------------------|-----------------------|-----------------|
-----------------|-------------------|-----------------------|-----------------|
-----------------|-------------------|-----------------------|-----------------|


S S S S S S S S E E Q
--8-9-11-9-7-6-4-6-|--2------9----||
-------------------|-----2--11----||
-------------------|--------11----||
-------------------|--------------||




Duration Legend
---------------
W - whole
H - half
Q - quarter
E - 8th
S - 16th
T - 32nd
X - 64th
. - note dotted
|-n-| - n-tuplets


Tablature Legend
----------------
L - tied note
x - dead note
g - grace note
(n) - ghost note
> - accentuded note
NH - natural harmonic
AH - artificial harmonic
TH - tapped harmonic
SH - semi harmonic
PH - pitch harmonic
h - hammer on
p - pull off
b - bend
br - bendRelease
pb - preBend
pbr - preBendRelease
brb - bendReleaseBend
\n/ - tremolo bar dip
\n - tremolo bar dive
-/n - tremolo bar Release up
/n\ - tremolo bar inverted dip
/n - tremolo bar return
-\n - tremolo bar Release down
S - shift slide
s - legato slide
/ - slide into from below or out of upwards
\ - slide into from above or out of downwards
~ - vibrato
W - wide vibrato
tr - trill
TP - tremolo picking
T - tapping
S - slap
P - pop
< - fade in
^ - brush up
v - brush down



Πρόσθεσε σχόλιο:
2015-12-01 15:48:44
kabamaru: Μπράβο