Βαθμολογήθηκε 0 από 0 χρήστες


Ξεκλείδωμα ταστιέρας
Τραγούδι:Ο παπατζής
Ερμηνευτής:Νταλάρας Γιώργος
Δημιουργός:Παπάζογλου
Youtube:http://www.youtube.com/watch?v=2-lCBASaKys
Χρήστης:spyros55
Άλλες εκδόσεις:
Ρε Μινορε
(0)
random1
(1)
Ταμπλατούρα:
ο παπατζης                                    



Όργανο 1
W S. T S S S S E. T T S S S S Q S. T
D||----------------------16-||---13-12-11-13-12-----12-11-9-8-11-9----L--16-|
A||-------------------------||*---------------------------------------------|
F||-------------------------||*---------------------------------------------|
C||-------------------------||----------------------------------------------|


S S S S S S S S S S S S S S S S S. T
--13-12-11-13-12-20-19-17-16-13-12-11-12-7-9-11-12-16-|
------------------------------------------------------|
------------------------------------------------------|
------------------------------------------------------|


S S S S E. T T S S S S Q.
--13-12-11-13-12-----12-10-9-8-10-9------|
-----------------------------------------|
-----------------------------------------|
-----------------------------------------|


T T T T S S S T T S T T S S S S S S S S E
--9-11-9-7-9-11-12-13-16-13-12-13-12-11-10-9-9-4-9-4-9--|
--------------------------------------------------------|
--------------------------------------------------------|
--------------------------------------------------------|


στον παπα τα κονομουσα....
S. T S S S S S S S S S S S S S S E
--9--------------------------7-9-11-12-16-13-12-12-11-10-9-9-4-9-4-9--|
----------------------------------------------------------------------|
----------------------------------------------------------------------|
----------------------------------------------------------------------|


E S S S S S S S S S S T T T T T T T T E
--L--9-11-12-16-13-12-12-11-9-11-12-17-16-13-16-13-12-11-12--|
-------------------------------------------------------------|
-------------------------------------------------------------|
-------------------------------------------------------------|


S. T S S S S S S S S S S S S S S E
--9--7-9-11-12-16-13-12-12-11-10-9-9-4-9-4-9--|
----------------------------------------------|
----------------------------------------------|
----------------------------------------------|


E S S S S S S S S S S T T T T T T T T E
--L--9-11-12-16-13-12-12-11-9-11-12-17-16-13-16-13-12-11-12--|
-------------------------------------------------------------|
-------------------------------------------------------------|
-------------------------------------------------------------|


E S S E S S S S S S S S S S S S
---L--16-17-17--16-13-16-13-12-10-13-16-12-13-10-9-|
---------------------------------------------------|
---------------------------------------------------|
---------------------------------------------------|


S S S S S S S S S S S S. T T T T T T T E
--L-9-11-12-16-13-12-12-11-9-11-12-17-16-13-16-13-12-11-12--|
------------------------------------------------------------|
------------------------------------------------------------|
------------------------------------------------------------|


E S S E S S S S S S S S S S S S
---L--16-17-17--16-13-16-13-12-11-13-16-12-13-11-9-|
---------------------------------------------------|
---------------------------------------------------|
---------------------------------------------------|


E S S S S S S S S S E S S S S. T
--L--9-11-12-16-13-12-12-11-10-9--4-9-4-9--16-|
----------------------------------------------|
----------------------------------------------|
----------------------------------------------|


S S S S E. T T S S S S Q.
--13-12-11-13-12-----12-10-9-8-10-9-------||
-----------------------------------------*||
-----------------------------------------*||
------------------------------------------||


S S S S S T T S T T S S S S S S S S E
--16-13-12-11-12-13-16-13-12-13-12-11-10-9-9-4-9-4-9--|-----||
------------------------------------------------------|-----||
------------------------------------------------------|-----||
------------------------------------------------------|-----||




Duration Legend
---------------
W - whole
H - half
Q - quarter
E - 8th
S - 16th
T - 32nd
X - 64th
. - note dotted
|-n-| - n-tuplets


Tablature Legend
----------------
L - tied note
x - dead note
g - grace note
(n) - ghost note
> - accentuded note
NH - natural harmonic
AH - artificial harmonic
TH - tapped harmonic
SH - semi harmonic
PH - pitch harmonic
h - hammer on
p - pull off
b - bend
br - bendRelease
pb - preBend
pbr - preBendRelease
brb - bendReleaseBend
\n/ - tremolo bar dip
\n - tremolo bar dive
-/n - tremolo bar Release up
/n\ - tremolo bar inverted dip
/n - tremolo bar return
-\n - tremolo bar Release down
S - shift slide
s - legato slide
/ - slide into from below or out of upwards
\ - slide into from above or out of downwards
~ - vibrato
W - wide vibrato
tr - trill
TP - tremolo picking
T - tapping
S - slap
P - pop
< - fade in
^ - brush up
v - brush down



Πρόσθεσε σχόλιο: