Βαθμολογήθηκε 0 από 0 χρήστες


Ξεκλείδωμα ταστιέρας
Τραγούδι:Το δικό μου πάπλωμα
Ερμηνευτής:Καζαντζίδης Στέλιος
Δημιουργός:Μητσάκης Γιώργος
Youtube:https://www.youtube.com/watch?v=LXBjwlxTjJo
Χρήστης:spyros55
Άλλες εκδόσεις:
markopasa
(0)
hlias34
(1)
Ταμπλατούρα:
 το δικο μου παπλωμα                               



Όργανο 1
E E E E E E E E E E E E E E
D||--9--10--12--14--14--12--10--|--9--10--7--9--5--5--4--|
A||-----------------------------|------------------------|
F||-----------------------------|------------------------|
C||-----------------------------|------------------------|


E E E E E E E E E E E Q. E E E E E E E
--5--7--9--7--5--5--4--|--5--2--4--0--2------|--9--10--12--14--14--12--10--|
-----------------------|---------------------|-----------------------------|
-----------------------|---------------------|-----------------------------|
-----------------------|---------------------|-----------------------------|


E E E E E E E E E E E Q. Q E E E E E
--9--10--7--9--5--5--4--|--5--2--4--0--2------|--7----7--9--7--5--4--|
------------------------|---------------------|----------------------|
------------------------|---------------------|----------------------|
------------------------|---------------------|----------------------|


Q E E E E E Q E E E E E Q Q Q.
--5----5--7--5--4--2--|--4----4--5--4--2--0--|--2----7----7------|
----------------------|----------------------|-------------------|
----------------------|----------------------|-------------------|
----------------------|----------------------|-------------------|


Q E E E E E Q E E E E E Q E E E E E
--7----7--9--7--5--4--|--5----5--7--5--4--2--|--4----4--5--4--2--0--|
----------------------|----------------------|----------------------|
----------------------|----------------------|----------------------|
----------------------|----------------------|----------------------|


η καρδια μου`ναι μεγαλη....
Q Q Q. Q E E Q E
--2----2----2------|--2---------------------------2--4--5----4--|
-------------------|--------------------------------------------|
-------------------|--------------------------------------------|
-------------------|--------------------------------------------|


Q E E E E E Q E E E E E Q Q Q.
--5----5--7--5--4--2--|--4----4--5--4--2--0--|--2----2----2------|
----------------------|----------------------|-------------------|
----------------------|----------------------|-------------------|
----------------------|----------------------|-------------------|


Q E E E E E Q E E Q. Q E E Q E
--4----4--5--4--2--0--|--2----2--4--2------|--5----5--7--9----9--|
----------------------|--------------------|---------------------|
----------------------|--------------------|---------------------|
----------------------|--------------------|---------------------|


Q Q Q E Q E E E E E E E E E Q.
--9----9----9----7--|--12----12--10--9--9--7--|--9--5--7--4--5------|
--------------------|-------------------------|---------------------|
--------------------|-------------------------|---------------------|
--------------------|-------------------------|---------------------|


Q E E E E E Q E E E E E Q E E E E E
--7----7--9--7--5--4--|--5----5--7--5--4--2--|--4----4--5--4--2--0--|
----------------------|----------------------|----------------------|
----------------------|----------------------|----------------------|
----------------------|----------------------|----------------------|


Q Q Q. Q E E E E E Q E E E E E
--2----7----7------|--7----7--9--7--5--4--|--5----5--7--5--4--2--|
-------------------|----------------------|----------------------|
-------------------|----------------------|----------------------|
-------------------|----------------------|----------------------|


Q E E E E E Q Q Q. Q Q Q.
--4----4--5--4--2--0--|--2----2----2-------||--2----2----2------||
----------------------|-------------------*||-------------------||
----------------------|-------------------*||-------------------||
----------------------|--------------------||-------------------||




Duration Legend
---------------
W - whole
H - half
Q - quarter
E - 8th
S - 16th
T - 32nd
X - 64th
. - note dotted
|-n-| - n-tuplets


Tablature Legend
----------------
L - tied note
x - dead note
g - grace note
(n) - ghost note
> - accentuded note
NH - natural harmonic
AH - artificial harmonic
TH - tapped harmonic
SH - semi harmonic
PH - pitch harmonic
h - hammer on
p - pull off
b - bend
br - bendRelease
pb - preBend
pbr - preBendRelease
brb - bendReleaseBend
\n/ - tremolo bar dip
\n - tremolo bar dive
-/n - tremolo bar Release up
/n\ - tremolo bar inverted dip
/n - tremolo bar return
-\n - tremolo bar Release down
S - shift slide
s - legato slide
/ - slide into from below or out of upwards
\ - slide into from above or out of downwards
~ - vibrato
W - wide vibrato
tr - trill
TP - tremolo picking
T - tapping
S - slap
P - pop
< - fade in
^ - brush up
v - brush down



Πρόσθεσε σχόλιο: