Βαθμολογήθηκε 3.6 από 3 χρήστες


Ξεκλείδωμα ταστιέρας
Τραγούδι:Ό,τι άναψε θα σβήσει
Ερμηνευτής:Μιχάλης Μενιδιάτης
Δημιουργός: Τάκης Κωλέτης
Youtube:https://youtu.be/AJtnWdD799k
Χρήστης:troni
Άλλες εκδόσεις:
Ταμπλατούρα:
Intro:

d|--9-10-12--12-10-9h10-7--9-9-10-10-12--12-8-7--3--5--2--3--3-3-3--3-3-3--|
A|--------0----------------0------------------0-----------0----------------|
D|--------0----------------0------------------0-----------0----------------|

d|--3-3-3--3-5-2-0----3--3-5-2-0-2---0--0-0-0--0-0-0-2-0-----------0--|
A|------0----------3--0------------3-0-------------------3-2-0-2-3----|
D|------0-------------0--------------0--------------------------------|

d|--9-10-12--12-10-9h10-7--9-9-10-10-12--12-8-7--3--5--2--3--3-3-3--3-3-3--|
A|--------0----------------0------------------0-----------0----------------|
D|--------0----------------0------------------0-----------0----------------|

d|--3-3-3--3-5-2-0----3--3-5-2-0-2---0--0-0-0--0-0-0-2-0-----------0-2-3-5-7--|
A|------0----------3--0------------3-0-------------------3-2-0-2-3------------|
D|------0-------------0--------------0----------------------------------------|


Verse:
d|--5--7--7--7-7-7--7-7-5--7--8--10--7--8--5--7--3--3-3-3--|
A|--------0-------------0------------0-----------0---------|
D|--------0-------------0------------0-----------0---------|

d|--3-3-3--3-5-2-0----3--3-5-2-0-2---0--0-0-0--0-0-0-2-0-----------0-2-3-5-7--|
A|------0----------3--0------------3-0-------------------3-2-0-2-3------------|
D|------0-------------0--------------0----------------------------------------|

d|--5--7--7--7-7-7--7-7-5--7--8--10--7--8--5--7--3--3-3-3--|
A|--------0-------------0------------0-----------0---------|
D|--------0-------------0------------0-----------0---------|

d|--3-3-3--3-5-2-0----3--3-5-2-0-2---0--0-0-0--0-0-0-2-0-----------0--|
A|------0----------3--0------------3-0-------------------3-2-0-2-3----|
D|------0-------------0--------------0--------------------------------|



Πρόσθεσε σχόλιο: